Mercenaries

Here's where you can look out for some of the guides.
Post Reply
Rabellu
Foman
Foman
Posts: 246
Joined: Fri Sep 12, 2008 11:46 am

Mercenaries

Post by Rabellu » Fri Sep 19, 2008 11:02 am

Mercenaries

This Supportive feature is available in the game since the launch of Episode 2. Mercenaries are used as support while hunting monsters. They are like another player and most of their functions are automated. They can hunt, heal and use skills just like a player. The role of the mercenary is very wide and can vary from a supportive hunter for levelling up to an aggresive sidekick for Wars.

How to get a Mercenary ?

A mercenary can be summoned from any of the following NPC's

1. Bellua at Quanato

2. Rosee at Temoz

To summon a NPC, talk to the NPC and choose 'Open NPC Window' option. Then you will see the NPC shop window as shown below.
To summon a NPC, talk to the NPC and choose 'Open NPC Window' option. Then you will see the NPC shop window as shown below.
[img]http://img178.imageshack.us/img178/9607/adsjx0.jpg[/img]

The left half of the shop shows the mercenaries window of the player. The other half on the right shows the Mercenary shop window of the Bar NPC. The Bar NPC is also selling lottery tickets which can be accessed by clicking on the different Tabs on top of the shop.


There Are 4 Types Of Mercenary
Warrior Mercenary ( This Mercenary is not Very Usefull and Only Archer and Mage Class Should Buy It )
Hk Mercenary ( The Best Mercenary Help in Defence, Increasing Evasion It Suits To All Classes Specially Archers and Mages )
Mage Mercenary ( It is not very usefull it suits to Hk and Warrior Class)
Archer Mercenary ( It is a good mercenary help to increase Critical hit rate and it suits all classes )

A mercenary stone costs 500000 Wz.

To buy a mercenary stone click on the stone of your choice(warrior,mage, etc.,) and you will be prompted to enter a name for your mercenary as shown below provided you have sufficient amount of Woonz in your inventory (not in your storage).
[img]http://img120.imageshack.us/img120/4810/dasdasqn9.jpg[/img]

Note:
- When the player dies, mercenary dies as well.
- Bring mercenary back to the merchant whom you purchase it from and revive it
(You will need to first unequip it)
- Chances of dropping item upon death happens to mercenary as well.
- Mercenary will use up saving scrolls upon death too.
- Even if you equip the mercenary with a full set of new equipment, only the weapon will be seen as visually changed. Mercenary original body armour will remain as it is through out the entire game.
- Mercenary is to be sealed / unequipped when doing special quest or entering arena.
- Manual potting of mercenary HP potion uses the F7 Key

Shortcut Keys to efficiently control your mercenary battle modes during battle are:
V - Attack Player's First Target
B - Do Not Attack
M - Defend Player (Mercenary will attack any mobs who is attacking your character.)
N- Attack Nearest Enemy ( Mercenary attacks nearest monster automatically)



Effect of Mercenary Skills as per Skill Level

1-Warrior
Warrior mercy is Helpfull in increasing your Attack and Elemental Damage
u can do bossing with u r mercy also if he is of good lvl and RB


Robust
Level--MPConsumed---Plus effect
1---------3--------Increase max HP by 100
2---------4--------Increase max HP by 100
3---------5--------Increase max HP by 100
4---------6--------Increase max HP by 200
5---------7--------Increase max HP by 200
6---------8--------Increase max HP by 300
7---------9--------Increase max HP by 300
8---------10-------Increase max HP by 300
9---------13-------Increase max HP by 400
10--------16-------Increase max HP by 500


DefenseMastery
Level--MP Consumed----Plus effect
1---------3---------Increase defense by 3
2---------4---------Increase defense by 3
3---------4---------Increase defense by 6
4---------6---------Increase defense by 6
5---------6---------Increase defense by 12
6---------8---------Increase defense by 12
7---------8---------Increase defense by 18
8---------10--------Increase defense by 18
9---------10--------Increase defense by 24
10--------13--------Increase defense by 24


OffensiveMastery
Level--MP Consumed----Plus effect
1---------3---------Increase Attack power by 4
2---------4---------Increase Attack power by 4
3---------4---------Increase Attack power by 8
4---------6---------Increase Attack power by 8
5---------6---------Increase Attack power by 16
6---------8---------Increase Attack power by 16
7---------8---------Increase Attack power by 24
8---------10--------Increase Attack power by 24
9---------10--------Increase Attack power by 32
10--------13--------Increase Attack power by 32


ElementalBlow
Level-MPConsump--AddDMG-----Additional ELE Damage
Ice Fire Lighting
1-------2---------10--------9-------9-------9
2-------2---------20--------3-------3-------3
3-------3---------20--------3-------3-------3
4-------4---------30--------3-------3-------3
5-------4---------30--------3-------3-------3
6-------6---------30--------4-------4-------4
7-------8---------30--------5-------5-------5
8-------8---------50--------6-------6-------6
9-------10--------60--------12------12------12
10------12--------70--------12------12------12


Pier
Level-MPConsumed--Damage--Duration in seconds
1-------2-----------20------------1
2-------3-----------20------------2
3-------4-----------60------------2
4-------5-----------20------------2
5-------6-----------30------------3
6-------7-----------100-----------3
7-------8-----------30------------3
8-------9-----------40------------4
9-------12----------100-----------4
10------15----------30------------4


Blind
Level-MPConsumed--Damage--Duration in seconds
1-------2-----------20------------1
2-------3-----------20------------2
3-------4-----------60------------2
4-------5-----------20------------2
5-------6-----------30------------3
6-------7-----------100-----------3
7-------8-----------30------------3
8-------9-----------40------------4
9-------12----------100-----------4
10------15----------30------------4


2- Mage
Mage mercy is a ranger mercinery
It increase u r Elemental attack and normal attack


Robust
Level--MPConsumed----Plus effect
1---------3--------Increase max HP by 100
2---------4--------Increase max HP by 100
3---------5--------Increase max HP by 100
4---------6--------Increase max HP by 200
5---------7--------Increase max HP by 200
6---------8--------Increase max HP by 300
7---------9--------Increase max HP by 300
8---------10-------Increase max HP by 300
9---------13-------Increase max HP by 400
10--------16-------Increase max HP by 500

DefenseMastery
Level--MP Consumed----Plus effect
1---------3---------Increase defense by 3
2---------4---------Increase defense by 3
3---------4---------Increase defense by 6
4---------6---------Increase defense by 6
5---------6---------Increase defense by 12
6---------8---------Increase defense by 12
7---------8---------Increase defense by 18
8---------10--------Increase defense by 18
9---------10--------Increase defense by 24
10--------13--------Increase defense by 24

OffensiveMastery
Level--MP Consumed ----Plus effect
1---------3---------Increase Attack power by 4
2---------4---------Increase Attack power by 4
3---------4---------Increase Attack power by 8
4---------6---------Increase Attack power by 8
5---------6---------Increase Attack power by 16
6---------8---------Increase Attack power by 16
7---------8---------Increase Attack power by 24
8---------10--------Increase Attack power by 24
9---------10--------Increase Attack power by 32
10--------13--------Increase Attack power by 32

Blunt
Level-MPconsumed-Attack--Duration
1-------2--------100-------1
2-------3--------50--------2
3-------4--------100-------2
4-------5--------50--------2
5-------6--------50--------3
6-------7--------100-------3
7-------8--------50--------3
8-------9--------50--------4
9-------12-------100-------4
10------15-------50--------4

Breez
Level MP consumed Attack Duration Sec Sucess Elemental Damage
-----------------------------------Fire--Ice-Lightning
1------2-------10-----1--------1----20---20---20
2------2-------20-----2--------2----5----5----5
3------3-------20-----2--------3----5----5----5
4------4-------40-----3--------4----6----6----6
5------4-------40-----4--------4----6----6----6
6------6-------40-----4--------5----6----6----6
7------8-------60-----4--------6----8----8----8
8------8-------60-----5--------7----8----8----8
9------10------60-----5--------8----8----8----8
10-----12------70-----6--------9----12---12---12


ElementalMastery
Level-MPconsu-Attack-Duration-Sucess-Elemental Damage
-----------------------------------Fire--Ice-Lightning
1------2-------10-----1--------1----20---20---20
2------2-------20-----2--------2----5----5----5
3------3-------20-----2--------3----5----5----5
4------4-------40-----3--------4----6----6----6
5------4-------40-----4--------4----6----6----6
6------6-------40-----4--------5----6----6----6
7------8-------60-----4--------6----8----8----8
8------8-------60-----5--------7----8----8----8
9------10------60-----5--------8----8----8----8
10-----12------70-----6--------9----12---12---12

3- HolyKnight
It is a mercy which increase u r Evasion+Antimagic+Critical hit evasion
If this mercy is of good lvl or RB then she can tank real renias and it became
easy to kill renias.
it is good during pk so that other will do 0 damage on u bcoz of evasion


Robust
Level--MPConsumed---Plus effect
1---------3--------Increase max HP by 100
2---------4--------Increase max HP by 100
3---------5--------Increase max HP by 100
4---------6--------Increase max HP by 200
5---------7--------Increase max HP by 200
6---------8--------Increase max HP by 300
7---------9--------Increase max HP by 300
8---------10-------Increase max HP by 300
9---------13-------Increase max HP by 400
10--------16-------Increase max HP by 500

DefenseMastery
Level--MP Consumed----Plus effect
1---------3---------Increase defense by 3
2---------4---------Increase defense by 3
3---------4---------Increase defense by 6
4---------6---------Increase defense by 6
5---------6---------Increase defense by 12
6---------8---------Increase defense by 12
7---------8---------Increase defense by 18
8---------10--------Increase defense by 18
9---------10--------Increase defense by 24
10--------13--------Increase defense by 24

OffensiveMastery
Level--MP Consumed----Plus effect
1---------3---------Increase Attack power by 4
2---------4---------Increase Attack power by 4
3---------4---------Increase Attack power by 8
4---------6---------Increase Attack power by 8
5---------6---------Increase Attack power by 16
6---------8---------Increase Attack power by 16
7---------8---------Increase Attack power by 24
8---------10--------Increase Attack power by 24
9---------10--------Increase Attack power by 32
10--------13--------Increase Attack power by 32

Evasion

Level--Consuming MSP----Plus effect
1--------3--------Increase Evasion by 1
2--------3--------Increase Evasion by 2
3--------4--------Increase Evasion by 3
4--------5--------Increase Evasion by 4
5--------5--------Increase Evasion by 5
6--------6--------Increase Evasion by 6
7--------9--------Increase Evasion by 7
8--------9--------Increase Evasion by 8
9--------10-------Increase Evasion by 9
10-------13-------Increase Evasion by 10

AntiMagic
Level--Consuming MSP----Plus effect
1--------3--------Increase Magical evasion by 1
2--------3--------Increase Magical evasion by 2
3--------4--------Increase Magical evasion by 3
4--------5--------Increase Magical evasion by 4
5--------5--------Increase Magical evasion by 5
6--------6--------Increase Magical evasion by 6
7--------9--------Increase Magical evasion by 7
8--------9--------Increase Magical evasion by 8
9--------10-------Increase Magical evasion by 9

Fortune
Level--Consuming MSP ----Plus effect
1--------3--------Increase critical hit Evasion by 1
2--------3--------Increase critical hit Evasion by 2
3--------4--------Increase critical hit Evasion by 3
4--------5--------Increase critical hit Evasion by 4
5--------5--------Increase critical hit Evasion by 5
6--------6--------Increase critical hit Evasion by 6
7--------9--------Increase critical hit Evasion by 7
8--------9--------Increase critical hit Evasion by 8
9--------10-------Increase critical hit Evasion by 9
10-------13-------Increase critical hit Evasion by 10

4- Archer
archer mercy is a range mercy which hits monsters from far
It increase u r Critical hit+Accurace+Normal Damage
Monstly this mercy is good in pk for increasing critical hit if opponent is not having Dexterity uniq.

Robust
Level--MPConsumed---Plus effect
1---------3--------Increase max HP by 100
2---------4--------Increase max HP by 100
3---------5--------Increase max HP by 100
4---------6--------Increase max HP by 200
5---------7--------Increase max HP by 200
6---------8--------Increase max HP by 300
7---------9--------Increase max HP by 300
8---------10-------Increase max HP by 300
9---------13-------Increase max HP by 400
10--------16-------Increase max HP by 500

DefenseMastery
Level--MP Consumed----Plus effect
1---------3---------Increase defense by 3
2---------4---------Increase defense by 3
3---------4---------Increase defense by 6
4---------6---------Increase defense by 6
5---------6---------Increase defense by 12
6---------8---------Increase defense by 12
7---------8---------Increase defense by 18
8---------10--------Increase defense by 18
9---------10--------Increase defense by 24
10--------13--------Increase defense by 24

OffensiveMastery
Level--MP Consumed----Plus effect
1---------3---------Increase Attack power by 4
2---------4---------Increase Attack power by 4
3---------4---------Increase Attack power by 8
4---------6---------Increase Attack power by 8
5---------6---------Increase Attack power by 16
6---------8---------Increase Attack power by 16
7---------8---------Increase Attack power by 24
8---------10--------Increase Attack power by 24
9---------10--------Increase Attack power by 32
10--------13--------Increase Attack power by 32

Precision
Level--MP Consumed----Plus effect
1--------3--------Increases Accuracy by 1
2--------3--------Increases Accuracy by 2
3--------4--------Increases Accuracy by 3
4--------5--------Increases Accuracy by 4
5--------5--------Increases Accuracy by 5
6--------6--------Increases Accuracy by 6
7--------9--------Increases Accuracy by 7
8--------9--------Increases Accuracy by 8
9--------10-------Increases Accuracy by 9
10-------13-------Increases Accuracy by 10

Fatality
Level--MP Consumed----Plus effect
1--------3--------Increases critical hit rate by 1
2--------3--------Increases critical hit rate by 2
3--------4--------Increases critical hit rate by 3
4--------5--------Increases critical hit rate by 4
5--------5--------Increases critical hit rate by 5
6--------6--------Increases critical hit rate by 6
7--------9--------Increases critical hit rate by 7
8--------9--------Increases critical hit rate by 8
9--------10-------Increases critical hit rate by 9
10-------13-------Increases critical hit rate by 10

BowMastery
Level-- MP Consumed ---- Plus effect ---- Minus effect
Decrease Evasion
1--------3---------Increase damage by 50-----1
2--------3---------Increase damage by 50-----2
3--------4---------Increase damage by 50-----3
4--------5---------Increase damage by 50-----4
5--------5---------Increase damage by 50-----5
6--------6---------Increase damage by 50-----6
7--------9---------Increase damage by 50-----7
8--------9---------Increase damage by 50-----8
9--------10--------Increase damage by 50-----9
10-------13--------Increase damage by 50-----10
Ign:- Nightmare
Igc:- Warrior

Active on Forums only not ingame.
I want my status to be Rabellu not this KnowledgeBase :(

User avatar
Tomriddle
Graybone
Graybone
Posts: 536
Joined: Thu Mar 10, 2016 6:44 pm

Re: Mercenaries

Post by Tomriddle » Sat Mar 19, 2016 4:21 pm

Nicely told. :)
:ymdevil: "Only I Can Live Forever!!!" :ymdevil:
The Dark Lord

Post Reply